DimeStoreSaints.com
Would you like to react to this message? Create an account in a few clicks or log in to continue.


A forum dedicated to The Gaslight Anthem - Brian Fallon says: ''For consistent and up to the minute stuff, Dimestore Saints is a great place to check out and hang with some really nice people.''
 
PortalHomeSearchLatest imagesRegisterLog in

 

 Señor and the Queen

Go down 
AuthorMessage
Jukebox Romeo
The Navesink Banks
The Navesink Banks
Jukebox Romeo


Posts : 1624
Join date : 2008-08-19
Location : Cleveland, OH

Señor and the Queen Empty
PostSubject: Señor and the Queen   Señor and the Queen Icon_minitimeWed Jan 28, 2009 6:51 pm

Tuned down a whole step
Mostly power chords, maybe some full barre chords

Verse:
Dm F Bb F C
Dm F Bb Am

Chorus:
Dm Bb F C x2

Musical Bridge:
Guitar 1
D|-----------------------------------------------------------5-4-|
A|-7-5-7-5-7-5---7-5-7-5-7-5---7-5-7-5-7-5------5--------|
E|----------------------------------------------------3-----------|

D|-5-4-5-4-5-4---5-4-5-4-5-4---5-4-5-4-5-4------------5-4-|
A|---------------------------------------------------------5--------|
E|-----------------------------------------------------3------------|

Guitar 2
D|-----------------------------------------------------------5-4-|
A|-7-5-7-5-7-5---7-5-7-5-7-5---7-5-7-5-7-5------5--------|
E|----------------------------------------------------3-----------| x2

Outro:
Dm Bb F C x4
End on Dm
Back to top Go down
 
Señor and the Queen
Back to top 
Page 1 of 1
 Similar topics
-
» Senor & The Queen
» new SatQ pressing
» Senor and the Queen question
» senor and the queen cd varients
» Who are the people in "señor and the queen"

Permissions in this forum:You cannot reply to topics in this forum
DimeStoreSaints.com :: The Gaslight Anthem :: Guitar Tabs-
Jump to: