DimeStoreSaints.com
Would you like to react to this message? Create an account in a few clicks or log in to continue.


A forum dedicated to The Gaslight Anthem - Brian Fallon says: ''For consistent and up to the minute stuff, Dimestore Saints is a great place to check out and hang with some really nice people.''
 
PortalHomeSearchRegisterLog in

 

 Complete Blue Dahlia (intro/lead)

Go down 
AuthorMessage
zerb012345
Wooderson
Wooderson
zerb012345

Posts : 514
Join date : 2013-01-01
Age : 23
Location : New Hampshire

Complete Blue Dahlia (intro/lead) Empty
PostSubject: Complete Blue Dahlia (intro/lead)   Complete Blue Dahlia (intro/lead) Icon_minitimeWed Feb 27, 2013 6:56 pm

This may be on here already, but I'm looking for the intro to Blue Dahlia. Not the chords, but the lead line.


Last edited by zerb012345 on Sun Apr 07, 2013 10:48 am; edited 1 time in total
Back to top Go down
zerb012345
Wooderson
Wooderson
zerb012345

Posts : 514
Join date : 2013-01-01
Age : 23
Location : New Hampshire

Complete Blue Dahlia (intro/lead) Empty
PostSubject: Re: Complete Blue Dahlia (intro/lead)   Complete Blue Dahlia (intro/lead) Icon_minitimeSun Mar 10, 2013 8:34 pm

after some time playing around on my guitar, i've figured some of this out!

B-11 (bend)/11/11 BEND/11/11 then G- 12/12/12/12/10/8

Thats all I have...if anyone knows more please let me know.
Back to top Go down
zerb012345
Wooderson
Wooderson
zerb012345

Posts : 514
Join date : 2013-01-01
Age : 23
Location : New Hampshire

Complete Blue Dahlia (intro/lead) Empty
PostSubject: COMPLETE BLUE DAHLIA INTRO   Complete Blue Dahlia (intro/lead) Icon_minitimeSun Mar 10, 2013 8:59 pm

I worked on it a bit, and here's my completed into to Blue Dahlia.

Blue Dahlia

Tuning: EADGBe

e|---------------------------------------------------------------------------
B|-11b 11 11b 11 11----------------------------------------------------------
G|-----------------------12 12 12 12 10 8~---(all that x2)------------------------
D|---------------------------------------------------------------------------
A|---------------------------------------------------------------------------
E|---------------------------------------------------------------------------

e|---------------------------------------------------------------------------
B|---------------------------------------------------------------------------
G|---------------------------------------------------------------------------
D|--8h10h13 13 13 (x2)----17 17 17 17 15 13~~~- (all that x2)----------------------
A|--------------------------------------------------------------------------|
E|---------------------------------------------------------------------------

e|---------------------------------------------------------------------------
B|---------------------------------------------------------------------------
G| 8 8 8 8 10 10 10 10 12 12 12 12 13 13 13 13-------------------------------
D|---------------------------------------------------------------------------
A|---------------------------------------------------------------------------
E|---------------------------------------------------------------------------
Back to top Go down
sandyangryjohnnyormary?
A Contender
A Contender
sandyangryjohnnyormary?

Posts : 106
Join date : 2011-06-03

Complete Blue Dahlia (intro/lead) Empty
PostSubject: Re: Complete Blue Dahlia (intro/lead)   Complete Blue Dahlia (intro/lead) Icon_minitimeMon Mar 11, 2013 11:54 pm

Be a big boy and figure it out.
Back to top Go down
MKULTRA
Wooderson
Wooderson
MKULTRA

Posts : 439
Join date : 2009-09-26
Age : 26
Location : Edmonton, AB

Complete Blue Dahlia (intro/lead) Empty
PostSubject: Re: Complete Blue Dahlia (intro/lead)   Complete Blue Dahlia (intro/lead) Icon_minitimeTue Mar 12, 2013 12:08 am

thanks for the post
Back to top Go down
zerb012345
Wooderson
Wooderson
zerb012345

Posts : 514
Join date : 2013-01-01
Age : 23
Location : New Hampshire

Complete Blue Dahlia (intro/lead) Empty
PostSubject: Re: Complete Blue Dahlia (intro/lead)   Complete Blue Dahlia (intro/lead) Icon_minitimeTue Mar 12, 2013 11:27 am

I did, if you look in the tab section.
Back to top Go down
zerb012345
Wooderson
Wooderson
zerb012345

Posts : 514
Join date : 2013-01-01
Age : 23
Location : New Hampshire

Complete Blue Dahlia (intro/lead) Empty
PostSubject: Re: Complete Blue Dahlia (intro/lead)   Complete Blue Dahlia (intro/lead) Icon_minitimeTue Mar 12, 2013 6:55 pm

WingsForWheels wrote:
thanks for the post
No problem, glad to help.
Back to top Go down
maria1019
Red In The Morning
Red In The Morning


Posts : 1
Join date : 2013-04-23

Complete Blue Dahlia (intro/lead) Empty
PostSubject: Re: Complete Blue Dahlia (intro/lead)   Complete Blue Dahlia (intro/lead) Icon_minitimeWed Apr 24, 2013 10:17 am

Dear thanks for the post
Back to top Go down
Hanswurst
Wooderson
Wooderson
Hanswurst

Posts : 558
Join date : 2012-04-27
Age : 26
Location : Germany

Complete Blue Dahlia (intro/lead) Empty
PostSubject: Re: Complete Blue Dahlia (intro/lead)   Complete Blue Dahlia (intro/lead) Icon_minitimeSun Jul 07, 2013 3:48 pm

thx for the tabs Clap 

i was jamming around with these notes on different frets and came up with a tab for it in a scale (A Minor Pentatonic i guess) which is easier to play i think Smile


Tuning: gaslight standard 1 step down - DGCFAd

e|---------------------------------------------------------------------------
B|-13b 13 13b 13 13----------------------------------------------------
G|-----------------------14 14 14 14 12 ------(all that x2)----------
D|-----------------------------------------15~ -----------------------------
A|---------------------------------------------------------------------------
E|---------------------------------------------------------------------------

e|---------------------------------------------------------------------------
B|---------------------------------------------------------------------------
G|---------------------------------------------------------------------------
D|----------12 15 15 15~~ (x2)---12 14h 14 14 14 12 - (all that x2)
A|--12 15h ------------------------------------------------15~~~ -------
E|---------------------------------------------------------------------------

e|---------------------------------------------------------------------------
B|---------------------------------------------------------------------------
G|--------------12 12 12 12 14 14 14 14 15 15 15 15--------------
D| 15 15 15 15-----------------------------------------------------------
A|---------------------------------------------------------------------------
E|---------------------------------------------------------------------------

i think it also sounds good if you play the last part one octave lower so it would be:

e|---------------------------------------------------------------------------
B|---------------------------------------------------------------------------
G|----------0 0 0 0 2 2 2 2 3 3 3 3 -----------------------------------
D| 3 3 3 3 ----------------------------------------------------------------
A|---------------------------------------------------------------------------
E|---------------------------------------------------------------------------
Back to top Go down
Sponsored content




Complete Blue Dahlia (intro/lead) Empty
PostSubject: Re: Complete Blue Dahlia (intro/lead)   Complete Blue Dahlia (intro/lead) Icon_minitime

Back to top Go down
 
Complete Blue Dahlia (intro/lead)
Back to top 
Page 1 of 1

Permissions in this forum:You cannot reply to topics in this forum
DimeStoreSaints.com :: The Gaslight Anthem :: Guitar Tabs-
Jump to: