DimeStoreSaints.com
Would you like to react to this message? Create an account in a few clicks or log in to continue.


A forum dedicated to The Gaslight Anthem - Brian Fallon says: ''For consistent and up to the minute stuff, Dimestore Saints is a great place to check out and hang with some really nice people.''
 
PortalHomeSearchRegisterLog in

 

 Mae tab

Go down 
AuthorMessage
moconnell23
Red In The Morning
Red In The Morning
moconnell23

Posts : 33
Join date : 2012-06-22
Age : 24
Location : Chicago, IL

Mae tab Empty
PostSubject: Mae tab   Mae tab Icon_minitimeSat Sep 22, 2012 6:01 pm

Does anyone know the main riff in Mae? I've looked everywhere online but haven't been able to find it.
Back to top Go down
Harbortown
The Navesink Banks
The Navesink Banks
Harbortown

Posts : 6728
Join date : 2011-04-13
Age : 30
Location : Kingdom of the Swedes

Mae tab Empty
PostSubject: Re: Mae tab   Mae tab Icon_minitimeSat Sep 22, 2012 6:51 pm

Here you go
Mae tab N43Wh
Back to top Go down
thebiglebowski
A Contender
A Contender


Posts : 215
Join date : 2011-02-10

Mae tab Empty
PostSubject: Re: Mae tab   Mae tab Icon_minitimeMon Oct 01, 2012 8:19 pm

Harbortown,

Are you making guitar pros for all or some of the Handwritten songs or did you just fulfil a request using GP?

If it's the former, share that shit!
Back to top Go down
Harbortown
The Navesink Banks
The Navesink Banks
Harbortown

Posts : 6728
Join date : 2011-04-13
Age : 30
Location : Kingdom of the Swedes

Mae tab Empty
PostSubject: Re: Mae tab   Mae tab Icon_minitimeTue Oct 02, 2012 12:14 pm

I'm not, but I've done some Guitar Pro files before.

If you're interested in having them made in Guitar Pro, I'd be happy to help out. Do you want all the songs?
Back to top Go down
thebiglebowski
A Contender
A Contender


Posts : 215
Join date : 2011-02-10

Mae tab Empty
PostSubject: Re: Mae tab   Mae tab Icon_minitimeTue Oct 02, 2012 2:10 pm

Harbortown wrote:
I'm not, but I've done some Guitar Pro files before.

If you're interested in having them made in Guitar Pro, I'd be happy to help out. Do you want all the songs?

Sweet man. Ideally, every Gaslight / HC / BF song would have a full GP tab. I'm not asking you to devote a year to it. Every one you can post is appreciated.
Back to top Go down
Harbortown
The Navesink Banks
The Navesink Banks
Harbortown

Posts : 6728
Join date : 2011-04-13
Age : 30
Location : Kingdom of the Swedes

Mae tab Empty
PostSubject: Re: Mae tab   Mae tab Icon_minitimeTue Oct 02, 2012 4:22 pm

I'll start working on Handwritten tonight.
Back to top Go down
thebiglebowski
A Contender
A Contender


Posts : 215
Join date : 2011-02-10

Mae tab Empty
PostSubject: Re: Mae tab   Mae tab Icon_minitimeTue Oct 02, 2012 5:21 pm

Good stuff
Back to top Go down
Harbortown
The Navesink Banks
The Navesink Banks
Harbortown

Posts : 6728
Join date : 2011-04-13
Age : 30
Location : Kingdom of the Swedes

Mae tab Empty
PostSubject: Re: Mae tab   Mae tab Icon_minitimeTue Nov 13, 2012 9:47 am

I've been extremely lazy with this project but I'm about halfway through 45, all instruments included. So that's something.
Back to top Go down
thebiglebowski
A Contender
A Contender


Posts : 215
Join date : 2011-02-10

Mae tab Empty
PostSubject: Re: Mae tab   Mae tab Icon_minitimeFri Nov 16, 2012 2:29 pm

I still 100% stand by my statement that everytime someone tabs something out it is appreciated (as long as it isn't horribly done) but 45 is already covered pretty well on ultimate-guitar.com. So if you can finish it (and maybe yours is more accurate) then awesome! but there are other songs more in need of the full treatment.

And maybe someday someone will do "say I won't (recognize)" fully. I know its a difficult one. I gotta ask, though. That is the one I've wanted to play forever!
Back to top Go down
FrankieG
A Contender
A Contender
FrankieG

Posts : 107
Join date : 2013-03-03
Age : 30

Mae tab Empty
PostSubject: Re: Mae tab   Mae tab Icon_minitimeSat Jun 01, 2013 1:48 pm

Does anyone have Alex's riff after "been in love for awhile" ?
Back to top Go down
FrankieG
A Contender
A Contender
FrankieG

Posts : 107
Join date : 2013-03-03
Age : 30

Mae tab Empty
PostSubject: Re: Mae tab   Mae tab Icon_minitimeSat Jun 01, 2013 2:56 pm

FrankieG wrote:
Does anyone have Alex's riff after "been in love for awhile" ?

Fuck yeah I think I got it:
https://www.youtube.com/watch?v=NSeET6hGIvY

d |-12--12--12--|-15--15--15--|---------------|--12--12--12--|-----------------|
A |--------------|--------------|--15--15--15--|---------------|--12--12--12--12--|
F |--------------|--------------|---------------|---------------|---------------|
C |-------------|---------------|---------------|---------------|---------------|
G |-------------|---------------|---------------|---------------|---------------|
D |-------------|---------------|---------------|---------------|---------------|

Someone let me know if this is right
Back to top Go down
Prisoner
Wooderson
Wooderson
Prisoner

Posts : 577
Join date : 2009-02-06
Age : 32
Location : The Netherlands

Mae tab Empty
PostSubject: Re: Mae tab   Mae tab Icon_minitimeMon Jun 03, 2013 5:02 am

FrankieG wrote:
FrankieG wrote:
Does anyone have Alex's riff after "been in love for awhile" ?

Fuck yeah I think I got it:
https://www.youtube.com/watch?v=NSeET6hGIvY

d |-12--12--12--|-15--15--15--|---------------|--12--12--12--|-----------------|
A |--------------|--------------|--15--15--15--|---------------|--12--12--12--12--|
F |--------------|--------------|---------------|---------------|---------------|
C |-------------|---------------|---------------|---------------|---------------|
G |-------------|---------------|---------------|---------------|---------------|
D |-------------|---------------|---------------|---------------|---------------|

Someone let me know if this is right

Almost! Smile

d |-12--12--12--|-15--15--15--|---------------|--12--12--12--|-----------------|
A |--------------|--------------|--15--15--15--|---------------|--12--12--12--13--|
F |--------------|--------------|---------------|---------------|---------------|
C |-------------|---------------|---------------|---------------|---------------|
G |-------------|---------------|---------------|---------------|---------------|
D |-------------|---------------|---------------|---------------|---------------|
Back to top Go down
Rodi
Red In The Morning
Red In The Morning
Rodi

Posts : 2
Join date : 2013-07-24
Location : England

Mae tab Empty
PostSubject: Re: Mae tab   Mae tab Icon_minitimeWed Jul 24, 2013 10:46 am

does anyone know this in standard tuning???
Back to top Go down
Hanswurst
Wooderson
Wooderson
Hanswurst

Posts : 558
Join date : 2012-04-27
Age : 26
Location : Germany

Mae tab Empty
PostSubject: Re: Mae tab   Mae tab Icon_minitimeWed Jul 24, 2013 7:39 pm

if the guitar is tuned in drop D (one whole step down) every tone you play is a whole step lower than it would be in standard tuning. For example the first note of this tab on the 12 fret would be an e in standard tuning. but in drop D its a whole step lower -->its a "d" .

If you want to play the same thing in standard tuning, you have to play a "d" which is on the 10 fret.

sooooo just play the whole thing two frets lower, so it'd be

e |-10--10--10--|-13--13--13--|---------------|--10--10--10--|-----------------|
B |--------------|--------------|--13--13--13--|---------------|--10--10--10--11--|
G |--------------|--------------|---------------|---------------|---------------|
D |-------------|---------------|---------------|---------------|---------------|
A |-------------|---------------|---------------|---------------|---------------|
E |-------------|---------------|---------------|---------------|---------------|

sorry for my bad english but i hope this helps Wink

once you you understand the system its much easier to transpose standard tabs when your guitar is tuned in drop D or vice versa Wink
Back to top Go down
Rodi
Red In The Morning
Red In The Morning
Rodi

Posts : 2
Join date : 2013-07-24
Location : England

Mae tab Empty
PostSubject: Re: Mae tab   Mae tab Icon_minitimeWed Jul 24, 2013 8:25 pm

Thanks a lot! Very Happy (and your english was fine by the way Wink
Back to top Go down
Sponsored content




Mae tab Empty
PostSubject: Re: Mae tab   Mae tab Icon_minitime

Back to top Go down
 
Mae tab
Back to top 
Page 1 of 1

Permissions in this forum:You cannot reply to topics in this forum
DimeStoreSaints.com :: The Gaslight Anthem :: Guitar Tabs-
Jump to: