DimeStoreSaints.com
Would you like to react to this message? Create an account in a few clicks or log in to continue.


A forum dedicated to The Gaslight Anthem - Brian Fallon says: ''For consistent and up to the minute stuff, Dimestore Saints is a great place to check out and hang with some really nice people.''
 
PortalHomeSearchRegisterLog in

 

 Elsie Bass Tabs

Go down 
AuthorMessage
Afzoomie67
Red In The Morning
Red In The Morning
Afzoomie67

Posts : 53
Join date : 2012-03-13
Age : 23
Location : Pennsylvania, USA

Elsie Bass Tabs Empty
PostSubject: Elsie Bass Tabs   Elsie Bass Tabs Icon_minitimeSat May 19, 2012 5:16 pm

So, I've lurked here for a few months, never posting anything but I just chilled here. And I like it a lot. Anyway, I play bass and I know the bass parts aren't fairly complex except on a few songs (Crush is one of them). And I was wondering if anyone had all 12 songs off Elsie tabbed out for bass? I'd do it, but I don't have the time to. Thanks.
Back to top Go down
Afzoomie67
Red In The Morning
Red In The Morning
Afzoomie67

Posts : 53
Join date : 2012-03-13
Age : 23
Location : Pennsylvania, USA

Elsie Bass Tabs Empty
PostSubject: Re: Elsie Bass Tabs   Elsie Bass Tabs Icon_minitimeWed May 23, 2012 3:01 pm

Anyone?
Back to top Go down
Harbortown
The Navesink Banks
The Navesink Banks
Harbortown

Posts : 6728
Join date : 2011-04-13
Age : 30
Location : Kingdom of the Swedes

Elsie Bass Tabs Empty
PostSubject: Re: Elsie Bass Tabs   Elsie Bass Tabs Icon_minitimeThu May 24, 2012 9:17 am

I'll do it for you but give me a few days as I don't have the time right away and it takes a little while.
Back to top Go down
Afzoomie67
Red In The Morning
Red In The Morning
Afzoomie67

Posts : 53
Join date : 2012-03-13
Age : 23
Location : Pennsylvania, USA

Elsie Bass Tabs Empty
PostSubject: Re: Elsie Bass Tabs   Elsie Bass Tabs Icon_minitimeFri May 25, 2012 5:50 pm

Harbortown wrote:
I'll do it for you but give me a few days as I don't have the time right away and it takes a little while.

Thanks a lot, man!
Back to top Go down
Harbortown
The Navesink Banks
The Navesink Banks
Harbortown

Posts : 6728
Join date : 2011-04-13
Age : 30
Location : Kingdom of the Swedes

Elsie Bass Tabs Empty
PostSubject: Re: Elsie Bass Tabs   Elsie Bass Tabs Icon_minitimeFri Jun 01, 2012 4:06 pm

Last rites

Verse (And outro):
C - F

Chorus:
Am - G - F

Back to top Go down
Harbortown
The Navesink Banks
The Navesink Banks
Harbortown

Posts : 6728
Join date : 2011-04-13
Age : 30
Location : Kingdom of the Swedes

Elsie Bass Tabs Empty
PostSubject: Re: Elsie Bass Tabs   Elsie Bass Tabs Icon_minitimeFri Jun 01, 2012 4:13 pm

Sugar

Verse:
Cm - G# - D#

Pre-chorus:
D# - Gm - Cm - G#

Chorus (And solo):
G# - D# x2
G# - D# - A#

Bridge:
Cm - G# - D# - A# x2
G# - Gm - A#



Back to top Go down
Harbortown
The Navesink Banks
The Navesink Banks
Harbortown

Posts : 6728
Join date : 2011-04-13
Age : 30
Location : Kingdom of the Swedes

Elsie Bass Tabs Empty
PostSubject: Re: Elsie Bass Tabs   Elsie Bass Tabs Icon_minitimeFri Jun 01, 2012 4:57 pm

Behold the hurricane
Tuned down a whole step

INTRO

C --------------------------------------------------
G --------------------------------------------------
D 5-5--3-5-5--3-5-5--3-5-5-5-3----

C --------------------------0-2-5-2---------------------
G -3-3----3-3----3-3---3-----------------------------------
D -------3------3------3------------5-5--3-5-5--3-5-5--3-5-5-5-3----


VERSE

C ----------------------------------------------------------------------------------------------------
G -3-3-3-3-3-3-3-3-3-3-3-3----------------------------------------------------------------------
D ------------------------------3-3-3-3-5-5-5-5-5-5-5-5-5-5-5-5-3-3-3-3---------------------

C ----------------------------------------------------------------------------------------------------5-5-5-5-5-5-5-5
G -3-3-3-3-3-3-3-3-3-3-3-3----------------------------------------------------------------------
D ------------------------------3-3-3-3-5-5-5-5-5-5-5-5-5-5-5-5-5-5-5-5-3-3-3-3-3-3-3-3-------------

CHORUS

C --------------------------0-2-5-2---------------------
G -3-3----3-3----3-3---3-----------------------------------
D -------3------3------3------------5-5--3-5-5--3-5-5--3-5-5-5-3----

C --------------------------0-2-5-2---------------------
G -3-3----3-3----3-3---3-----------------------------------
D -------3------3------3------------5-5--3-5-5--3-5-5--3-5-5-5-3----

C --------------------------0-2-5-2---------------------
G -3-3----3-3----3-3---3-----------------------------------
D -------3------3------3------------5-5--3-5-5--3-5-5--3-5-5-5-3----

C --------------------------------------------------
G -3-3-3-3-3-3-3-3------------------------------------------
D ---------------------3-3-3-3-3-3-3-3-5-5-5-5-5-5-5-3-1-1-1-1-1-1-1-1------

INTRO

VERSE 2

CHORUS

INTERLUDE

C --------------------------------------------------
G -3-3-3-3-3-3-3-3-3-3-3-3-3-3-3-3----------
D --------------------------------------------------

BRIDGE

C --------------------------------------------------
G ---------------------------------5-7-5---------------
D -0-0-0-0-0-0-0-0-0-0-0-0-0--------5-5-5-5-5-3-5-3-1-1-1-1-1-1-3-1--------------

C --------------------------------------------------
G ---------------------------------5-7-5---------------
D -0-0-0-0-0-0-0-0-0-0-0-0-0--------5-5-5-5-5-3-5-3-1-1-1-1-1-1-3-1--------------

C ----------------------------------------------------------------------------------------------------5-5-5-5-5-5-5-5
G --------------------------
D -5-5-5-5-5-3-5-3-1-1-1-1-1-3-0-3-5-5-5-5-5-3-5-3-1-1-1-1-1-3-0-3-3-3-3-3-3-3-3-3----------

CHORUS

OUTRO
C --------------------------------------------------
G -----------------------------------------3-3-3-3-3-3-3-3-3-3-3-3-3-3-3-3
D -5-5-5-5-5-5-5-3-1-1-1-1-1-1-1-1----------------------------------

C --------------------------------------------------
G -----------------------------------------3-3-3-3-3-3-3-3-3-3-3-3-3-3-3-3
D -5-5-5-5-5-5-5-3-1-1-1-1-1-1-1-1----------------------------------

C ---------------------10-10-10-10-10-10-10-10----------------------
G -3-3-3-3-3-3-3-3------------------
D --------------------------------------------------
Back to top Go down
Harbortown
The Navesink Banks
The Navesink Banks
Harbortown

Posts : 6728
Join date : 2011-04-13
Age : 30
Location : Kingdom of the Swedes

Elsie Bass Tabs Empty
PostSubject: Re: Elsie Bass Tabs   Elsie Bass Tabs Icon_minitimeFri Jun 01, 2012 5:03 pm

Behold the hurricane is one of the easier songs on the album and it took me about 30-40 minutes to complete. Partially due to doing other things in between and partially because it just takes some time to write all of it out, so you'll have to give me some more patience with the rest of the album.
Back to top Go down
Afzoomie67
Red In The Morning
Red In The Morning
Afzoomie67

Posts : 53
Join date : 2012-03-13
Age : 23
Location : Pennsylvania, USA

Elsie Bass Tabs Empty
PostSubject: Re: Elsie Bass Tabs   Elsie Bass Tabs Icon_minitimeMon Jun 04, 2012 1:02 pm

Harbortown wrote:
Behold the hurricane is one of the easier songs on the album and it took me about 30-40 minutes to complete. Partially due to doing other things in between and partially because it just takes some time to write all of it out, so you'll have to give me some more patience with the rest of the album.

Either way, thank you so much. I'd never be able to do Behold the Hurricane in 30-40 minutes. It'd take FOREVER. I don't need every song, just Crush, Ladykiller, and Blood Loss.
Back to top Go down
Jables
Red In The Morning
Red In The Morning
Jables

Posts : 88
Join date : 2012-07-16
Age : 25
Location : Pontyclun, South Wales

Elsie Bass Tabs Empty
PostSubject: Re: Elsie Bass Tabs   Elsie Bass Tabs Icon_minitimeThu Oct 04, 2012 2:40 pm

Not entirely sure this should be here but oh well...
Back to top Go down
Sponsored content




Elsie Bass Tabs Empty
PostSubject: Re: Elsie Bass Tabs   Elsie Bass Tabs Icon_minitime

Back to top Go down
 
Elsie Bass Tabs
Back to top 
Page 1 of 1

Permissions in this forum:You cannot reply to topics in this forum
DimeStoreSaints.com :: Side Projects & Earlier Bands :: The Horrible Crowes: Audio, Video & Tabs-
Jump to: