DimeStoreSaints.com
Would you like to react to this message? Create an account in a few clicks or log in to continue.


A forum dedicated to The Gaslight Anthem - Brian Fallon says: ''For consistent and up to the minute stuff, Dimestore Saints is a great place to check out and hang with some really nice people.''
 
PortalHomeSearchRegisterLog in

 

 Old Haunts (solo)

Go down 
AuthorMessage
Holland
The '59 Sound
The '59 Sound
Holland

Posts : 1174
Join date : 2009-06-08
Age : 33
Location : England ,Wigan

Old Haunts (solo) Empty
PostSubject: Old Haunts (solo)   Old Haunts (solo) Icon_minitimeWed Apr 06, 2011 7:37 pm


When i copy from text edit some kind of magical destruction happens to my tabs , i amended it as best i could.

Old Haunts (solo) - Gaslight Anthem
-------------------------------------------------------------------------------
Tabbed by:Shaun Holland
Email:

Tuning: Im doing this one in standard move it up two frets if you are a whole step down. Im going to use R = repick/strum.

So on the forth of these first bends keep it in the bent position and strum again 3 times.

e|---------------------------------------------------------------------------|
B|----10-------10------10-------10-----RRR-----------------------------------------|
G|----12b14--12b14--12b14--12b14-RRR---10-12b14-12-10-12-+ph10---------------|
D|----------------------------------------------------------------------------------12--14-14-------|
A|---------------------------------------------------------------------------|
E|---------------------------------------------------------------------------|

I think on the record there is a pinched harmonic in there but i don't think he plays that live .

e|---------------------------------------------------------------------------|
B|----------------------------------------------------------------------------|
G|------------10-----10-------------12b14---12-10---+ph12b14rb12--10--------------|
D|---10h12----12------12p10---------------------------------------------------|
A|--------------------------------12------------------------------------------------|
E|---------------------------------------------------------------------------|
The bend that looks complicated there is basically bend up to 14 then quickly back to 12.
Don't know if i tabbed it right.

e|---------------------------------------------------------------------------|
B|---------------------------------------------------------------------------|
G|--10h12-12-10-12p10-------10-------------------------------------------------|
D|-----------------------------12------12p10------10----------------------------------|
A|-------------------------------------------------13-----13-12-12-12----------------------|
E|---------------------------------------------------------------------------|

e|---------------------------------------------------------------------------|
B|---------------------------------------------------------------------------|
G|-------------------10--------10-12-10----------------------------------------------|
D|-----------10-12----12-------------------------------------------------------|
A|--10h12--------------------------------------------------------------------|
E|---------------------------------------------------------------------------|
Back to top Go down
thebiglebowski
A Contender
A Contender


Posts : 215
Join date : 2011-02-10

Old Haunts (solo) Empty
PostSubject: Re: Old Haunts (solo)   Old Haunts (solo) Icon_minitimeFri Apr 08, 2011 10:38 am

This is probably going to take a while to get down but I am definitely gonna try.

Thanks! Keep em coming!!!

(Alex's part on Say I Won't (Recognize) would be a cool next one...)
Back to top Go down
Holland
The '59 Sound
The '59 Sound
Holland

Posts : 1174
Join date : 2009-06-08
Age : 33
Location : England ,Wigan

Old Haunts (solo) Empty
PostSubject: Re: Old Haunts (solo)   Old Haunts (solo) Icon_minitimeFri Apr 08, 2011 2:40 pm

Thats a good idea , that EP is the only Gaslight stuff i don't know how to play so it would be nice to work it out.
Back to top Go down
ThisMachineKillsFascists
I'da called you Woody
I'da called you Woody
ThisMachineKillsFascists

Posts : 785
Join date : 2009-11-22
Age : 30
Location : Stockholm, Sweden

Old Haunts (solo) Empty
PostSubject: Re: Old Haunts (solo)   Old Haunts (solo) Icon_minitimeTue Apr 12, 2011 1:58 pm

Thanks alot man!
Back to top Go down
thebiglebowski
A Contender
A Contender


Posts : 215
Join date : 2011-02-10

Old Haunts (solo) Empty
PostSubject: Re: Old Haunts (solo)   Old Haunts (solo) Icon_minitimeSun Dec 30, 2012 4:08 pm

Anyone want to Guitar Pro this for me? I never used that program but I am assuming that if all the notes are there, it isn't a ton of work.

Just having trouble making sense of it without seeing the notes played as I hear them. Not very talented. All I can do right now is kinda follow the general scale or whatever this is based on and make my own notes up. Doesn't sound THAT great though.
Back to top Go down
Harbortown
The Navesink Banks
The Navesink Banks
Harbortown

Posts : 6728
Join date : 2011-04-13
Age : 30
Location : Kingdom of the Swedes

Old Haunts (solo) Empty
PostSubject: Re: Old Haunts (solo)   Old Haunts (solo) Icon_minitimeSun Dec 30, 2012 4:33 pm

I'll take care of it
Back to top Go down
thebiglebowski
A Contender
A Contender


Posts : 215
Join date : 2011-02-10

Old Haunts (solo) Empty
PostSubject: Re: Old Haunts (solo)   Old Haunts (solo) Icon_minitimeSun Dec 30, 2012 6:16 pm

Kinda suspected you would!
Back to top Go down
Sponsored content




Old Haunts (solo) Empty
PostSubject: Re: Old Haunts (solo)   Old Haunts (solo) Icon_minitime

Back to top Go down
 
Old Haunts (solo)
Back to top 
Page 1 of 1

Permissions in this forum:You cannot reply to topics in this forum
DimeStoreSaints.com :: The Gaslight Anthem :: Guitar Tabs-
Jump to: